ISO-10303-21;
HEADER;
FILE_DESCRIPTION (( 'STEP AP214' ),
    '1' );
FILE_NAME ('FULLVAC JF1CF16.STEP',
    '2019-03-29T13:48:42',
    ( '' ),
    ( '' ),
    'SwSTEP 2.0',
    'SolidWorks 2017',
    '' );
FILE_SCHEMA (( 'AUTOMOTIVE_DESIGN' ));
ENDSEC;

DATA;
#1 =( NAMED_UNIT ( * ) SI_UNIT ( $, .STERADIAN. ) SOLID_ANGLE_UNIT ( ) );
#2 = EDGE_LOOP ( 'NONE', ( #108 ) ) ;
#3 =( LENGTH_UNIT ( ) NAMED_UNIT ( * ) SI_UNIT ( .MILLI., .METRE. ) );
#4 =( NAMED_UNIT ( * ) SI_UNIT ( $, .STERADIAN. ) SOLID_ANGLE_UNIT ( ) );
#5 = ORIENTED_EDGE ( 'NONE', *, *, #14, .T. ) ;
#6 = ORIENTED_EDGE ( 'NONE', *, *, #41, .F. ) ;
#7 = DIRECTION ( 'NONE',  ( 0.0000000000000000000, 0.0000000000000000000, 1.000000000000000000 ) ) ;
#8 = EDGE_LOOP ( 'NONE', ( #68 ) ) ;
#9 = APPLICATION_PROTOCOL_DEFINITION ( 'draft international standard', 'automotive_design', 1998, #51 ) ;
#10 =( NAMED_UNIT ( * ) SI_UNIT ( $, .STERADIAN. ) SOLID_ANGLE_UNIT ( ) );
#11 =( NAMED_UNIT ( * ) PLANE_ANGLE_UNIT ( ) SI_UNIT ( $, .RADIAN. ) );
#12 = CARTESIAN_POINT ( 'NONE',  ( 8.673814381134716800E-018, 8.000000000000001800, 0.0000000000000000000 ) ) ;
#13 = COLOUR_RGB ( '',0.3215686274509803600, 0.3215686274509803600, 0.3215686274509803600 ) ;
#14 = EDGE_CURVE ( 'NONE', #47, #47, #123, .T. ) ;
#15 = CYLINDRICAL_SURFACE ( 'NONE', #46, 8.000000000000001800 ) ;
#16 = CARTESIAN_POINT ( 'NONE',  ( 8.890457814381136400E-015, -1.155557966632341500E-030, 0.0000000000000000000 ) ) ;
#17 = APPLICATION_CONTEXT ( 'automotive_design' ) ;
#18 = DIRECTION ( 'NONE',  ( 0.0000000000000000000, 0.0000000000000000000, 1.000000000000000000 ) ) ;
#19 = ADVANCED_FACE ( 'NONE', ( #86, #55 ), #91, .T. ) ;
#20 =( LENGTH_UNIT ( ) NAMED_UNIT ( * ) SI_UNIT ( .MILLI., .METRE. ) );
#21 = PRESENTATION_LAYER_ASSIGNMENT (  '', '', ( #61 ) ) ;
#22 = VERTEX_POINT ( 'NONE', #125 ) ;
#23 =( GEOMETRIC_REPRESENTATION_CONTEXT ( 3 ) GLOBAL_UNCERTAINTY_ASSIGNED_CONTEXT ( ( #100 ) ) GLOBAL_UNIT_ASSIGNED_CONTEXT ( ( #3, #11, #10 ) ) REPRESENTATION_CONTEXT ( 'NONE', 'WORKASPACE' ) );
#24 = ORIENTED_EDGE ( 'NONE', *, *, #99, .T. ) ;
#25 =( LENGTH_UNIT ( ) NAMED_UNIT ( * ) SI_UNIT ( .MILLI., .METRE. ) );
#26 = COLOUR_RGB ( '',0.3215686274509803600, 0.3215686274509803600, 0.3215686274509803600 ) ;
#27 = FILL_AREA_STYLE_COLOUR ( '', #26 ) ;
#28 = DIRECTION ( 'NONE',  ( -1.115179377413662000E-015, 1.000000000000000000, 0.0000000000000000000 ) ) ;
#29 = DIRECTION ( 'NONE',  ( -1.110223000000000000E-015, 1.000000000000000000, 0.0000000000000000000 ) ) ;
#30 = CIRCLE ( 'NONE', #49, 10.49999999999999800 ) ;
#31 = PRESENTATION_STYLE_ASSIGNMENT (( #42 ) ) ;
#32 = FACE_BOUND ( 'NONE', #70, .T. ) ;
#33 = PRESENTATION_STYLE_ASSIGNMENT (( #39 ) ) ;
#34 = EDGE_LOOP ( 'NONE', ( #6 ) ) ;
#35 = DIRECTION ( 'NONE',  ( -1.000000000000000000, -1.110223000000000000E-015, -0.0000000000000000000 ) ) ;
#36 = DIRECTION ( 'NONE',  ( -1.115179377413662000E-015, 1.000000000000000000, 0.0000000000000000000 ) ) ;
#37 = CIRCLE ( 'NONE', #129, 10.49999999999999800 ) ;
#38 = CARTESIAN_POINT ( 'NONE',  ( 2.000000000000012400, 2.220445999999999200E-015, 0.0000000000000000000 ) ) ;
#39 = SURFACE_STYLE_USAGE ( .BOTH. , #104 ) ;
#40 = APPLICATION_PROTOCOL_DEFINITION ( 'draft international standard', 'automotive_design', 1998, #17 ) ;
#41 = EDGE_CURVE ( 'NONE', #22, #22, #30, .T. ) ;
#42 = SURFACE_STYLE_USAGE ( .BOTH. , #83 ) ;
#43 = EDGE_CURVE ( 'NONE', #79, #79, #37, .T. ) ;
#44 = ORIENTED_EDGE ( 'NONE', *, *, #41, .T. ) ;
#45 = DIRECTION ( 'NONE',  ( 1.000000000000000000, -0.0000000000000000000, 0.0000000000000000000 ) ) ;
#46 = AXIS2_PLACEMENT_3D ( 'NONE', #116, #71, #92 ) ;
#47 = VERTEX_POINT ( 'NONE', #76 ) ;
#48 = DIRECTION ( 'NONE',  ( 1.000000000000000000, 1.110223000000000000E-015, 0.0000000000000000000 ) ) ;
#49 = AXIS2_PLACEMENT_3D ( 'NONE', #50, #106, #29 ) ;
#50 = CARTESIAN_POINT ( 'NONE',  ( 1.257674520083185100E-014, -3.851859888774471700E-031, 0.0000000000000000000 ) ) ;
#51 = APPLICATION_CONTEXT ( 'automotive_design' ) ;
#52 = ADVANCED_FACE ( 'NONE', ( #112, #128 ), #117, .T. ) ;
#53 = AXIS2_PLACEMENT_3D ( 'NONE', #81, #35, #122 ) ;
#54 = UNCERTAINTY_MEASURE_WITH_UNIT (LENGTH_MEASURE( 1.000000000000000100E-005 ), #20, 'distance_accuracy_value', 'NONE');
#55 = FACE_OUTER_BOUND ( 'NONE', #101, .T. ) ;
#56 = DIRECTION ( 'NONE',  ( -1.000000000000000000, -1.110223000000000000E-015, -0.0000000000000000000 ) ) ;
#57 = EDGE_LOOP ( 'NONE', ( #44 ) ) ;
#58 = CARTESIAN_POINT ( 'NONE',  ( 0.0000000000000000000, 0.0000000000000000000, 0.0000000000000000000 ) ) ;
#59 = FILL_AREA_STYLE ('',( #27 ) ) ;
#60 =( NAMED_UNIT ( * ) PLANE_ANGLE_UNIT ( ) SI_UNIT ( $, .RADIAN. ) );
#61 = STYLED_ITEM ( 'NONE', ( #33 ), #77 ) ;
#62 = CARTESIAN_POINT ( 'NONE',  ( 4.169448000000000000E-016, 9.250000000000001800, 0.0000000000000000000 ) ) ;
#63 = PRODUCT_DEFINITION ( 'UNKNOWN', '', #126, #88 ) ;
#64 = SURFACE_STYLE_FILL_AREA ( #127 ) ;
#65 =( GEOMETRIC_REPRESENTATION_CONTEXT ( 3 ) GLOBAL_UNCERTAINTY_ASSIGNED_CONTEXT ( ( #54 ) ) GLOBAL_UNIT_ASSIGNED_CONTEXT ( ( #20, #93, #1 ) ) REPRESENTATION_CONTEXT ( 'NONE', 'WORKASPACE' ) );
#66 = STYLED_ITEM ( 'NONE', ( #31 ), #72 ) ;
#67 = PRESENTATION_LAYER_ASSIGNMENT (  '', '', ( #66 ) ) ;
#68 = ORIENTED_EDGE ( 'NONE', *, *, #14, .F. ) ;
#69 = CARTESIAN_POINT ( 'NONE',  ( 2.000000000000000900, 9.250000000000001800, 0.0000000000000000000 ) ) ;
#70 = EDGE_LOOP ( 'NONE', ( #24 ) ) ;
#71 = DIRECTION ( 'NONE',  ( 1.000000000000000000, 1.110223000000000000E-015, 0.0000000000000000000 ) ) ;
#72 = MANIFOLD_SOLID_BREP ( 'Volumenk\S\vrper1', #87 ) ;
#73 =( GEOMETRIC_REPRESENTATION_CONTEXT ( 3 ) GLOBAL_UNCERTAINTY_ASSIGNED_CONTEXT ( ( #133 ) ) GLOBAL_UNIT_ASSIGNED_CONTEXT ( ( #25, #60, #4 ) ) REPRESENTATION_CONTEXT ( 'NONE', 'WORKASPACE' ) );
#74 = DIRECTION ( 'NONE',  ( -1.000000000000000000, 0.0000000000000000000, 0.0000000000000000000 ) ) ;
#75 = FILL_AREA_STYLE_COLOUR ( '', #13 ) ;
#76 = CARTESIAN_POINT ( 'NONE',  ( 2.000000000000000900, 8.000000000000003600, 0.0000000000000000000 ) ) ;
#77 = ADVANCED_BREP_SHAPE_REPRESENTATION ( 'FULLVAC JF1CF16', ( #72, #119 ), #73 ) ;
#78 = AXIS2_PLACEMENT_3D ( 'NONE', #62, #74, #7 ) ;
#79 = VERTEX_POINT ( 'NONE', #124 ) ;
#80 = CIRCLE ( 'NONE', #109, 8.000000000000001800 ) ;
#81 = CARTESIAN_POINT ( 'NONE',  ( 2.000000000000009800, 2.220446000000000000E-015, 0.0000000000000000000 ) ) ;
#82 = AXIS2_PLACEMENT_3D ( 'NONE', #69, #45, #121 ) ;
#83 = SURFACE_SIDE_STYLE ('',( #64 ) ) ;
#84 = PRODUCT_CONTEXT ( 'NONE', #51, 'mechanical' ) ;
#85 = PLANE ( 'NONE',  #78 ) ;
#86 = FACE_BOUND ( 'NONE', #134, .T. ) ;
#87 = CLOSED_SHELL ( 'NONE', ( #94, #118, #52, #19 ) ) ;
#88 = PRODUCT_DEFINITION_CONTEXT ( 'detailed design', #17, 'design' ) ;
#89 = AXIS2_PLACEMENT_3D ( 'NONE', #131, #115, #28 ) ;
#90 = ORIENTED_EDGE ( 'NONE', *, *, #43, .T. ) ;
#91 = PLANE ( 'NONE',  #82 ) ;
#92 = DIRECTION ( 'NONE',  ( -1.111307226797641800E-015, 1.000000000000000000, 0.0000000000000000000 ) ) ;
#93 =( NAMED_UNIT ( * ) PLANE_ANGLE_UNIT ( ) SI_UNIT ( $, .RADIAN. ) );
#94 = ADVANCED_FACE ( 'NONE', ( #32, #111 ), #85, .T. ) ;
#95 = DIRECTION ( 'NONE',  ( 1.000000000000000000, 0.0000000000000000000, 0.0000000000000000000 ) ) ;
#96 = ORIENTED_EDGE ( 'NONE', *, *, #43, .F. ) ;
#97 = SHAPE_DEFINITION_REPRESENTATION ( #132, #77 ) ;
#98 = DIRECTION ( 'NONE',  ( -1.110223000000000000E-015, 1.000000000000000000, 0.0000000000000000000 ) ) ;
#99 = EDGE_CURVE ( 'NONE', #105, #105, #80, .T. ) ;
#100 = UNCERTAINTY_MEASURE_WITH_UNIT (LENGTH_MEASURE( 1.000000000000000100E-005 ), #3, 'distance_accuracy_value', 'NONE');
#101 = EDGE_LOOP ( 'NONE', ( #96 ) ) ;
#102 = EDGE_LOOP ( 'NONE', ( #90 ) ) ;
#103 = MECHANICAL_DESIGN_GEOMETRIC_PRESENTATION_REPRESENTATION (  '', ( #66 ), #65 ) ;
#104 = SURFACE_SIDE_STYLE ('',( #114 ) ) ;
#105 = VERTEX_POINT ( 'NONE', #12 ) ;
#106 = DIRECTION ( 'NONE',  ( -1.000000000000000000, -1.110223000000000000E-015, -0.0000000000000000000 ) ) ;
#107 = FACE_OUTER_BOUND ( 'NONE', #2, .T. ) ;
#108 = ORIENTED_EDGE ( 'NONE', *, *, #99, .F. ) ;
#109 = AXIS2_PLACEMENT_3D ( 'NONE', #16, #48, #98 ) ;
#110 = PRODUCT ( 'FULLVAC JF1CF16', 'FULLVAC JF1CF16', '', ( #84 ) ) ;
#111 = FACE_OUTER_BOUND ( 'NONE', #57, .T. ) ;
#112 = FACE_OUTER_BOUND ( 'NONE', #34, .T. ) ;
#113 = MECHANICAL_DESIGN_GEOMETRIC_PRESENTATION_REPRESENTATION (  '', ( #61 ), #23 ) ;
#114 = SURFACE_STYLE_FILL_AREA ( #59 ) ;
#115 = DIRECTION ( 'NONE',  ( 1.000000000000000000, 1.110223000000000000E-015, 0.0000000000000000000 ) ) ;
#116 = CARTESIAN_POINT ( 'NONE',  ( 1.000000000000010000, 1.110223000000000000E-015, 0.0000000000000000000 ) ) ;
#117 = CYLINDRICAL_SURFACE ( 'NONE', #89, 10.49999999999999800 ) ;
#118 = ADVANCED_FACE ( 'NONE', ( #120, #107 ), #15, .F. ) ;
#119 = AXIS2_PLACEMENT_3D ( 'NONE', #58, #18, #95 ) ;
#120 = FACE_OUTER_BOUND ( 'NONE', #8, .T. ) ;
#121 = DIRECTION ( 'NONE',  ( 0.0000000000000000000, 0.0000000000000000000, -1.000000000000000000 ) ) ;
#122 = DIRECTION ( 'NONE',  ( -1.084202172485504200E-015, 1.000000000000000000, 0.0000000000000000000 ) ) ;
#123 = CIRCLE ( 'NONE', #53, 8.000000000000001800 ) ;
#124 = CARTESIAN_POINT ( 'NONE',  ( 2.000000000000000900, 10.50000000000000000, 0.0000000000000000000 ) ) ;
#125 = CARTESIAN_POINT ( 'NONE',  ( 9.194037008318536600E-016, 10.49999999999999800, 0.0000000000000000000 ) ) ;
#126 = PRODUCT_DEFINITION_FORMATION_WITH_SPECIFIED_SOURCE ( 'ANY', '', #110, .NOT_KNOWN. ) ;
#127 = FILL_AREA_STYLE ('',( #75 ) ) ;
#128 = FACE_OUTER_BOUND ( 'NONE', #102, .T. ) ;
#129 = AXIS2_PLACEMENT_3D ( 'NONE', #38, #56, #36 ) ;
#130 = PRODUCT_RELATED_PRODUCT_CATEGORY ( 'part', '', ( #110 ) ) ;
#131 = CARTESIAN_POINT ( 'NONE',  ( 1.000000000000013100, 1.110223000000000000E-015, 0.0000000000000000000 ) ) ;
#132 = PRODUCT_DEFINITION_SHAPE ( 'NONE', 'NONE',  #63 ) ;
#133 = UNCERTAINTY_MEASURE_WITH_UNIT (LENGTH_MEASURE( 1.000000000000000100E-005 ), #25, 'distance_accuracy_value', 'NONE');
#134 = EDGE_LOOP ( 'NONE', ( #5 ) ) ;
ENDSEC;
END-ISO-10303-21;
